Misc Themes - Matrix Theme Chords & Tabs

 

Matrix Theme Chords & Tabs

Misc Themes Chords & Tabs

Version: 1 Type: Tab 3 ratings
1 star 2 stars 3 stars 4 stars 5 stars
comments

Matrix Theme Tab

Matrix Main Theme
Tabbed by Daniel Johansson


||---------------0---------------------------0------------------------------0------------------------------0-----
||---------------------------------------------------------------------------------------------------------------
||---------------------------------------------------------------------------------------------------------------
||---------------------------------------------------------------------------------------------------------------
||---------------------------------------------------------------------------------------------------------------
||---0---0------------0------0------0---------------0------2------2---------------2------2------2----------------



[ Tab from: http://www.guitartabs.cc/tabs/m/misc_themes/matrix_theme_tab.html ]
||------------------------0------------------------------0---------------------------0-------------------------0--|
||----------------------------------------------------------------------------------------------------------------|
||----------------------------------------------------------------------------------------------------------------|
||----------------------------------------------------------------------------------------------------------------|
||----------------------------------------------------------------------------------------------------------------|
||---2------3------3------------3------3------3---------------3------5------5------------5------5------5----------|

Just repeat above.. Play it over and over again.
Comments