Misc Themes - Final Fantasy 7 Theme Chords & Tabs

 

Final Fantasy 7 Theme Chords & Tabs

Misc Themes Chords & Tabs

Version: 1 Type: Tab 1 rating
1 star 2 stars 3 stars 4 stars 5 stars
comments

Final Fantasy 7 Theme Tab

Song: Final Fantasy 7 theme

Played: 16th notes

you may have to be good at guitar to play this one :)



|----------|---------------------0-3-8-10-12-15-|-20------------------------------------------|
|----------|-----------------1-3----------------|----20---------------------------------------|
|---4:-----|---------------0--------------------|-------21-19-17------------------------------|
|---4:-----|---0-------0-2----------------------|----------------17-------------------------0-|
|----------|-3-------3--------------------------|-------------------19-17-15------------------|
|----------|-----0-3----------------------------|----------------------------15-12-10-8-3-0---|


|-------------------------0-5-7-8-12-|-17----------------------------------------|
|---------------------0-1------------|----17-------------------------------------|
|-------------------2----------------|-------17-16-14----------------------------|
|-----------------2------------------|----------------14-------------------------|
|---0-2-3---0-2-3--------------------|-------------------15-14-12------------3-2-|
|---------0--------------------------|----------------------------12-8-7-5-0-----|


|-----------------------0-3-8-10-12-15-|-20------------------------------------------|
|-------------------1-3----------------|----20---------------------------------------|
|-----------------0--------------------|-------21-19-17------------------------------|
|-----0-------0-2----------------------|----------------17-------------------------0-|
|---3-------3--------------------------|-------------------19-17-15------------------|
|-------0-3----------------------------|----------------------------15-12-10-8-3-0---|

 
|-------------------------0-5-7-8-12-|-17----------------------------------------|
|---------------------0-1------------|----17-------------------------------------|
|-------------------2----------------|-------17-16-14----------------------------|
|-----------------2------------------|----------------14-------------------------|
|---0-2-3---0-2-3-------------R------|-------------------15-14-12------------3-2-|
|---------0--------------------------|----------------------------12-8-7-5-0-----|


|-----------------------1-3-5-8-13-15-|-17-15-13----------------------------------|
|---------------------1---------------|----------13-------------------------------|
|-----------------0-2-----------------|-------------14-12-10----------------------|
|---------------3---------------------|----------------------10-------------------|
|---0-3-----0-3-----------------------|-------------------------12-10-8---------3-|
|-------1-3---------------------------|---------------------------------8-5-3-1---|


|-----------------------3-5-7-10-15-17-|-19-17-15------------------------------------|
|-------------------0-3----------------|----------15---------------------------------|
|---------------0-2--------------------|-------------16-14-12------------------------|
|-----0-------0------------------------|----------------------12-------------------0-|
|---2-----0-2--------------------------|-------------------------14-12-10------------|
|-------3------------------------------|----------------------------------10-7-5-3---|
 
 
|-------------------------3-4-8-11-15-|-16-16--------------------------------------|
|---------------------1-4-------------|-------16-----------------------------------|
|-----------------0-1-----------------|----------17--------------------------------|
|-------1-------1---------------------|-------------18-18----------------------1---|
|-----3-------3-----------------------|-------------------18---------------------3-|
|---4-----4-4-------------------------|----------------------20-16-16-11-8-4-4-----|
 

|-----------------------1-5-6-10-13-17-|-18-18---------------------------------------|
|---------------------3----------------|-------18------------------------------------|
|-----------------2-3------------------|----------19---------------------------------|
|-----0-------0-3----------------------|-------------20-20-------------------------0-|
|---1-----1-1--------------------------|-------------------20------------------------|
|-------1------------------------------|----------------------22-18-18-13-10-6-6-1---|
 

|-----------------------0-3-8-10-12-15-|-20------------------------------------------|
|-------------------1-3----------------|----20---------------------------------------|
|-----------------0--------------------|-------21-19-17------------------------------|
|-----0-------0-2----------------------|----------------17-------------------------0-|
|---3-------3--------------------------|-------------------19-17-15------------------|
|-------0-3----------------------------|----------------------------15-12-10-8-3-0---|


|--------------------------0-5-7-8-12-|-17----------------------------------------|
|----------------------0-1------------|----17-------------------------------------|
|--------------------2----------------|-------17-16-14----------------------------|
|------------------2------------------|----------------14-------------------------|
|----0-2-3---0-2-3--------------------|-------------------15-14-12------------3-2-|
|----------0--------------------------|----------------------------12-8-7-5-0-----|
 

|-----------------------0-3-8-10-12-15-|-20------------------------------------------|
|-------------------1-3----------------|----20---------------------------------------|
|-----------------0--------------------|-------21-19-17------------------------------|
|-----0-------0-2----------------------|----------------17-------------------------0-|
|---3-------3--------------------------|-------------------19-17-15------------------|
|-------0-3----------------------------|----------------------------15-12-10-8-3-0---|


|--------------------------0-5-7-8-12-|-17----------------------------------------|
|----------------------0-1------------|----17-------------------------------------|
|--------------------2----------------|-------17-16-14----------------------------|
|------------------2------------------|----------------14-------------------------|
|----0-2-3---0-2-3--------------------|-------------------15-14-12------------3-2-|
|----------0--------------------------|----------------------------12-8-7-5-0-----|

[ Tab from: http://www.guitartabs.cc/tabs/m/misc_themes/final_fantasy_7_theme_tab.html ]
|-----------------------1-3-5-8-13-15-|-17-15-13----------------------------------|
|---------------------1---------------|----------13-------------------------------|
|-----------------0-2-----------------|-------------14-12-10----------------------|
|---------------3---------------------|----------------------10-------------------|
|---0-3-----0-3-----------------------|-------------------------12-10-8---------3-|
|-------1-3---------------------------|---------------------------------8-5-3-1---|


|-----------------------3-5-7-10-15-17-|-19-17-15------------------------------------|
|-------------------0-3----------------|----------15---------------------------------|
|---------------0-2--------------------|-------------16-14-12------------------------|
|-----0-------0------------------------|----------------------12-------------------0-|
|---2-----0-2--------------------------|-------------------------14-12-10------------|
|-------3------------------------------|----------------------------------10-7-5-3---|


|-------------------------3-4-8-11-15-|-16-16--------------------------------------|
|---------------------1-4-------------|-------16-----------------------------------|
|-----------------0-1-----------------|----------17--------------------------------|
|-------1-------1---------------------|-------------18-18----------------------1---|
|-----3-------3-----------------------|-------------------18---------------------3-|
|---4-----4-4-------------------------|----------------------20-16-16-11-8-4-4-----|


|-----------------------1-5-6-10-13-17-|-18-18---------------------------------------|
|---------------------3----------------|-------18------------------------------------|
|-----------------2-3------------------|----------19---------------------------------|
|-----0-------0-3----------------------|-------------20-20-------------------------0-|
|---1-----1-1--------------------------|-------------------20------------------------|
|-------1------------------------------|----------------------22-18-18-13-10-6-6-1---|
 

|-----------------------0-3-8-10-12-15-|-20-----------------------------------------|
|-------------------1-3----------------|----20--------------------------------------|
|-----------------0--------------------|-------21-19-17-----------------------------|
|-----0-------0-2----------------------|----------------17------------------------0-|
|---3-------3--------------------------|-------------------19-17--------------------|
|-------0-3----------------------------|---------------------------15-12-10-8-3-0---|
 

|--------------------------0-5-7-8-12-|-17----------------------------------------|
|----------------------0-1------------|----17-------------------------------------|
|--------------------2----------------|-------17-16-14----------------------------|
|------------------2------------------|----------------14-------------------------|
|----0-2-3---0-2-3--------------------|-------------------15-14-12------------3-2-|
|----------0--------------------------|----------------------------12-8-7-5-0-----|
 

|-----------------------0-3-8-10-12-15-|-20------------------------------------------|
|-------------------1-3----------------|----20---------------------------------------|
|-----------------0--------------------|-------21-19-17------------------------------|
|-----0-------0-2----------------------|----------------17-------------------------0-|
|---3-------3--------------------------|-------------------19-17-15------------------|
|-------0-3----------------------------|----------------------------15-12-10-8-3-0---|
 

|--------------------------0-5-7-8-12-|-17----------------------------------------|
|----------------------0-1------------|----17-------------------------------------|
|--------------------2----------------|-------17-16-14----------------------------|
|------------------2------------------|----------------14-------------------------|
|----0-2-3---0-2-3--------------------|-------------------15-14-12------------3-2-|
|----------0--------------------------|----------------------------12-8-7-5-0-----|


|-----------------------1-3-5-8-13-15-|-17-15-13----------------------------------|
|---------------------1---------------|----------13-------------------------------|
|-----------------0-2-----------------|-------------14-12-10----------------------|
|---------------3---------------------|----------------------10-------------------|
|---0-3-----0-3-----------------------|-------------------------12-10-8---------3-|
|-------1-3---------------------------|---------------------------------8-5-3-1---|


|-----------------------3-5-7-10-15-17-|-19-17-15------------------------------------|
|-------------------0-3----------------|----------15---------------------------------|
|---------------0-2--------------------|-------------16-14-12------------------------|
|-----0-------0------------------------|----------------------12-------------------0-|
|---2-----0-2--------------------------|-------------------------14-12-10------------|
|-------3------------------------------|----------------------------------10-7-5-3---|


|-------------------------3-4-8-11-15-|-16-16--------------------------------------|
|---------------------1-4-------------|-------16-----------------------------------|
|-----------------0-1-----------------|----------17--------------------------------|
|-------1-------1---------------------|-------------18-18----------------------1---|
|-----3-------3-----------------------|-------------------18---------------------3-|
|---4-----4-4-------------------------|----------------------20-16-16-11-8-4-4-----|
 

|-----------------------1-5-6-10-13-17-|-18-18---------------------------------------|
|---------------------3----------------|-------18------------------------------------|
|-----------------2-3------------------|----------19---------------------------------|
|-----0-------0-3----------------------|-------------20-20-------------------------0-|
|---1-----1-1--------------------------|-------------------20------------------------|
|-------1------------------------------|----------------------22-18-18-13-10-6-6-1---|


|-----------------------0-3-8-10-12-15-|-20-|
|-------------------1-3----------------|----|
|-----------------0--------------------|----|
|-----0-------0-2----------------------|----|
|---3-------3--------------------------|----|
|-------0-3----------------------------|----|


 






Comments