Misc Themes - Dragon Ball Z Theme Chords & Tabs

 

Dragon Ball Z Theme Chords & Tabs

Misc Themes Chords & Tabs

Version: 1 Type: Tab 0 ratings
1 star 2 stars 3 stars 4 stars 5 stars
comments

Dragon Ball Z Theme Tab

   
This is the opening theme song

e------------------
b------------------   X2
g--------3---------
d-55-3-5-3-5-55-3-5
a-55-3-5-1-5-55-3-5
e-33-1-3---3-33-1-3  

Pick this very fast ( duh )
[ Tab from: http://www.guitartabs.cc/tabs/m/misc_themes/dragon_ball_z_theme_tab.html ]
e----------------------------------------------------------------------------
b-3333-6666-5555-2222-3333-6666-88885-5555-8888-10101010-11111111-12121212-15
g----------------------------------------------------------------------------
d----------------------------------------------------------------------------
a----------------------------------------------------------------------------
e----------------------------------------------------------------------------

ok thats it... just go for it with lots of distortion
  Dan
Comments