Misc Themes - Bubble Bobble Theme Chords & Tabs

 

Bubble Bobble Theme Chords & Tabs

Misc Themes Chords & Tabs

Version: 1 Type: Tab 0 ratings
1 star 2 stars 3 stars 4 stars 5 stars
comments

Bubble Bobble Theme Tab


-6-5-3---5-3-----|-3-1-----1-----|---------------1-|-1-3-5-3-----3-5
-------6-----6-4-|-----4-3---3-1-|---1-3-4-1-3-4---|---------6--6---
-----------------|---------------|-3---------------|----------------
-----------------|---------------|-----------------|----------------
-----------------|---------------|-----------------|----------------
-----------------|---------------|-----------------|----------------

-6-5-3---5-3-----|-3-1-----1-----|---------------1-|-1-3-5---6---3
-------6----6--4-|-----4-3---3-1-|---1-3-4-1-3-4---|-------6---6--
-----------------|---------------|-3---------------|--------------
-----------------|---------------|-----------------|--------------
-----------------|---------------|-----------------|--------------
-----------------|---------------|-----------------|--------------
[ Tab from: http://www.guitartabs.cc/tabs/m/misc_themes/bubble_bobble_theme_tab.html ]
-4-|-5---3-5-|-6---3-5-|-8-----5-|-10-6-8-10-|-11-11-11-10-8-|-10-10
---|---6-----|---6-----|---6-8---|-----------|---------------|------
---|---------|---------|---------|-----------|---------------|------
---|---------|---------|---------|-----------|---------------|------
---|---------|---------|---------|-----------|---------------|------
---|---------|---------|---------|-----------|---------------|------

-8-----10-|-8-----4-|-5---3-5-|-6---3-5-|-8-----5-|-10-6-8-10-|-11
---8-8----|---6--8--|---6-----|---6-----|---6--8--|-----------|---
----------|---------|---------|---------|---------|-----------|---
----------|---------|---------|---------|---------|-----------|---
----------|---------|---------|---------|---------|-----------|---
----------|---------|---------|---------|---------|-----------|---

-11-11-10-8-|-10-10-|-8---10---10-|-6-------|
------------|-------|-------------|---------|
------------|-------|---10---10---|---------|
------------|-------|-------------|---------|
------------|-------|-------------|---------|
Comments