Misc Television - X Files Theme Chords & Tabs

 

X Files Theme Chords & Tabs

Misc Television Chords & Tabs

Version: 3 Type: Tab 2 ratings
1 star 2 stars 3 stars 4 stars 5 stars
comments

X Files Theme Tab

This is Steve again.  This is only my third tab, but I think it
will work out for you.

Song: X files theme
Artist: Misc
album: none
Corrections: none yet
Tabbed by: Steve Bishop




e------5--3--5--8--5-------------5--3--5--10--5---------------------
b--3-------------------------3--------------------------------------
g-------------------------------------------------------------------
d-------------------------------------------------------------------
a-------------------------------------------------------------------
E-------------------------------------------------------------------
[ Tab from: http://www.guitartabs.cc/tabs/m/misc_television/x_files_theme_tab_ver_3.html ]
e--12--10--8--6--3--5-----12--10--8--6--3--5------------------------
b-------------------------------------------------------------------
g-------------------------------------------------------------------
d-------------------------------------------------------------------
a-------------------------------------------------------------------
E-------------------------------------------------------------------

e------5--3--5--8--5-------------5--3--5--10--5---------------------
b--3-------------------------3--------------------------------------
g-------------------------------------------------------------------
d-------------------------------------------------------------------
a-------------------------------------------------------------------
E-------------------------------------------------------------------



You may need to hear the song for timing.  You should be able to 
figure it out though.  Shout out to Zak lovett, tabber of
I walk the line, Alea C., Christina W., and my sister.
Good luck with this song!  It's my third tab, so I hope you like it.
Comments