Misc Television - Wwf Undertaker Chords & Tabs

 

Wwf Undertaker Chords & Tabs

Misc Television Chords & Tabs

Version: 1 Type: Tab 0 ratings
1 star 2 stars 3 stars 4 stars 5 stars
comments

Wwf Undertaker Tab

Yes, I know it's "Sad but True" in disguise, but if it's good enough for the Undertaker,
then it's good enough for me! Any more WWF tabs to 
biggie_b@degeneration-x.co.uk please!

Tune guitar one whole step down.

--------------------------------|--------------------------------|
--------------------------------|--------------------------------|
2-------------------2---2---2---|3-----------------------3-------|
2-------------------2---2---2---|3-----------------------3-------|
0-------------------0---0---0---|1-----------------------1-------|
--------------------------------|--------------------------------|

--------------------------------|--------------------------------|
--------------------------------|--------------------------------|
2-------------------------------|--------------------------------|
2------------------/7---6---5---|3-5-3-5-3-5-353535353535--------|
0-------------------------------|------------------------x\------|
--------------------------------|--------------------------------|
[ Tab from: http://www.guitartabs.cc/tabs/m/misc_television/wwf_undertaker_tab.html ]
--------------------------------|--------------------------------|
--------------------------------|--------------------------------|
2-------------------2---2---2---|3-----------------------3-------|
2-------------------2---2---2---|3-----------------------3-------|
0-------------------0---0---0---|1-----------------------1-------|
--------------------------------|--------------------------------|

--------------------------------|----         
--------------------------------|----         
2-------------------------------|5---         Are You Scared?
2------------------/7---6---5---|3---         
0-------------------------------|----         
--------------------------------|----         

-------------------|
-------------------|
-------------------|
-------------------|
-------x---x-x-x-x-|
-------------------|

--------------------------------| | |--------------------------------|
--------------------------------| | |--------------------------------|
--------------------------------|%|%|--------------------------------| 4%
--------------------------------| | |--------------------------------|
2-----------2---2---5p0-1p0-----| | |2-------------------------------|
0-----------0---0-----------3p0-| | |0-------------------------------|

--------------------------------| | |--------------------------------|
--------------------------------| | |--------------------------------|
--------------------------------|%|%|--------------------------------| 4%
--------------------------------| | |--------------------------------|
2-----------2---2---5p0-1p0-----| | |2-----------2---2---5p0-5-5-----|
0-----------0---0-----------3p0-| | |0-----------0---0---------------|


Comments