Misc Television - Wwf Kanes New Theme Chords & Tabs

 

Wwf Kanes New Theme Chords & Tabs

Misc Television Chords & Tabs

Version: 1 Type: Tab 1 rating
1 star 2 stars 3 stars 4 stars 5 stars
comments

Wwf Kanes New Theme Tab

I've been sitting on Napster for the last three hours trying to figure
this one out. It may not be a hundred percent right, but it sounds damn
good

E--------------------------------------------------------------------
B--------------------------------------------------------------------
G--------------------------------------------------------------------
D---1--2--1--1--2--1--2--------1--2--1--1--2--1--2-------------------
A--------------------------------------------------------------------
E--------------------------------------------------------------------

E--------------------------------------------------------------------
B---7--7--7/5--5--6--5/0--0--0--3--1--3b-----------------------------
G--------------------------------------------------------------------
D--------------------------------------------------------------------
A--------------------------------------------------------------------
E--------------------------------------------------------------------
[ Tab from: http://www.guitartabs.cc/tabs/m/misc_television/wwf_kanes_new_theme_tab.html ]
E--------------------------------------------------------------------
B--------------------------------------------------------------------
G--------------------------------------------------------------------
D--1--2--1--1--2--1--2------1--2--1--1--2--1--2----------------------
A--------------------------------------------------------------------
E--------------------------------------------------------------------

E--------------------------------------------------------------------
B--7b--7/9b--7--0--0--3/1b-------------------------------------------
G--------------------------------------------------------------------
D--------------------------------------------------------------------
A--------------------------------------------------------------------
E--------------------------------------------------------------------

E--------------------------------------------------------------------
B---5~--9~--9--9--11b--2--2--4b--5--5--0--1b-------------------------
G--------------------------------------------------------------------
D--------------------------------------------------------------------
A--------------------------------------------------------------------
E--------------------------------------------------------------------

E--------------------------------------------------------------------
B--5~---9~----3~---9--9--11b-----------------------------------------
G--------------------------------------------------------------------
D--------------------------------------------------------------------
A--------------------------------------------------------------------
E--------------------------------------------------------------------

Repeat for three minutes
Comments