Misc Television - Vonage Theme Chords & Tabs

 

Vonage Theme Chords & Tabs

Misc Television Chords & Tabs

Version: 1 Type: Tab

Vonage Theme Tab

tabbed by: Allan, allan_DJ@hotmail.com
Hey this is my first tab, so don't hate-


Part 1:
E------------------|
B------------------|
G------------------|Repeat
D------------------|
A-------2-4-5-4-2--|
E---0-4-----------4|
[ Tab from: http://www.guitartabs.cc/tabs/m/misc_television/vonage_theme_tab.html ]
Part 2:
E------------------|
B------------------|
G------------------|Repeat
D-------2-4-5-4-2--|
E---0-4-----------4|
E------------------|

Play Part 1 One time only

Then-

E------------------|
B------------------|
G-------4-6-7-6-4--|Repeat
D---0-6-----------6|
E------------------|
E------------------|

Its really simple!