Misc Television - Tetley Tea Theme Chords & Tabs

 

Tetley Tea Theme Chords & Tabs

Misc Television Chords & Tabs

Version: 1 Type: Tab 0 ratings
1 star 2 stars 3 stars 4 stars 5 stars
comments

Tetley Tea Theme Tab

Title: tetley tea theme song
Album: i dont think there is one
Tabed by: Sexy Steve "the man" Pike
e-mail: bino_69@hotmail.com

ok, this is my first tab, but i always wanted to have a tab on the net so i could show off and feel better
then all those people who dont have tabs posted. fell free to e-mail comments to me at the above e-mail adress.


the first part:

e--------------------------------
a--------------------------------
d--------------------------------
g--------------------------------
b----14-15-14-15-14-15-12--------
E-12-----------------------------
[ Tab from: http://www.guitartabs.cc/tabs/m/misc_television/tetley_tea_theme_tab.html ]
The second part

e--------------------------------
a--------------------------------
d--------------------------------
g--------------------------------
b----12-14-12-14-12-14-10--------
E-10-----------------------------

Yip, you guessed it, the third part!!!!!!

e---------------------------------------------
a---------------------------------------------
d---------------------------------------------
g----14-12----12------------------------------
b----------14----14----15-14-12---------------
E-12----------------12----------15-14-12------

APHRODISIAC ROCKS!!!!!! 
GRAD TEAR!!!!!!!
Comments