Misc Television - Simpsons Theme Chords & Tabs

 

Simpsons Theme Chords & Tabs

Misc Television Chords & Tabs

Version: 2 Type: Tab 0 ratings
1 star 2 stars 3 stars 4 stars 5 stars
comments

Simpsons Theme Tab


"The Simpsons" Those 2 little words bring us running to the TV, every
time. Now you too can bring your friends and family running with this
simple to play tab. They'll think it's the real thing!!

e/------0-------------------------------
B/---0-2-3-0--------------------0-0-0---
G/--2-------0---------------------------
D/-----------2-0-0-0-2-0-0-0-2-4--------
A/--------------------------------------
E/--------------------------------------

If you have any comments or POSITIVE suggestions, e-mail me at
Boy_Genius99@hotmail.com or at CyberTy1@hotmail.com
[ Tab from: http://www.guitartabs.cc/tabs/m/misc_television/simpsons_theme_tab_ver_2.html ]
If you had a bad day and want to make fun of somebody for no 
particular reason, e-mail my friend at wesley_x@hotmail.com

P.S.

here is a sketchy tab of the beginning of the song

e/----------0--------
B/----0--2-----3--0--  then it does that diddly
G/-2(let this ring)--                          diddly
D/-------------------                                diddly
A/-------------------                                      dum 
E/-------------------

then this

e/------------------
B/---0-0-----0-0-0---
G/--2---2---2---2----
D/-------------------
A/-------------------
E/--------------------

Remember, that's wesley_x@hotmail.com
Comments