Misc Television - Simpsons Chords & Tabs

 

Simpsons Chords & Tabs

Misc Television Chords & Tabs

Version: 4 Type: Tab 0 ratings
1 star 2 stars 3 stars 4 stars 5 stars
comments

Simpsons Tab

the simpsons theme song in guitar form.
if it's not in the right key use a capo
or tune down or something does the key 
really matter that much?
tabbed by: justin flowers
written by: i'm not sure but respect him as an artist (i know it's a guy)

h=hammer on
p=pull off
\=slide down

---------------------------------------------------------------
------0h1----------0-3-1---------------------------------------
----2------------2--------2------------------------------------
--3-----------3-------------3-0------------1-------------1--3--
--------------------------------2223--2223----2223--2223-------
---------------------------------------------------------------
[ Tab from: http://www.guitartabs.cc/tabs/m/misc_television/simpsons_tab_ver_4.html ]
---------------------------------------------------------------
---------------------------------------------------------------
there's a large instrumental part hear that i really don't know...
-but you can just strum a muted F chord through it or solo in...
----the f minor pentatonic scale-------------------------------
---------------------------------------------------------------


----------------------------------------------1-1-1-1----------
-------------------0-3-1----------------------1-1-1-1----------
-10\\\\----------2--------2-------------------2-2-2-2----------
-10\\\\-------3-------------3-0------------1--3-3-3-3----------
--9\\\\-------------------------2223--2223----3-3-3-3----------
----------------------------------------------1-1-1-1----------
Comments