Misc Television - Simpsons Chords & Tabs

 

Simpsons Chords & Tabs

Misc Television Chords & Tabs

Version: 1 Type: Bass Tab 0 ratings
1 star 2 stars 3 stars 4 stars 5 stars
comments

Simpsons Bass Tab

Enjoy this tab... took me 1 hour to tabbed it out...

G-------4-2-----------------------------
D-0-4-6-----4-0-------------------------
A---------------0-3333-r-0-3333-5-777-9-
E---------------------------------------
[ Tab from: http://www.guitartabs.cc/tabs/m/misc_television/simpsons_btab.html ]
bit in middle played on saxophone

slow
G-------------4---2--------------------
D-0---4----6----------4----------------
A------------------------3333-5-3333-7-
E--------------------------------------

                  there easy as pie..........

lyrics:

THE SIMPSONS
Comments