Misc Television - Seinfield Theme Chords & Tabs

 

Seinfield Theme Chords & Tabs

Misc Television Chords & Tabs

Version: 1 Type: Tab 0 ratings
1 star 2 stars 3 stars 4 stars 5 stars
comments

Seinfield Theme Tab

   
Tebbed by: Ignacio "Coco" Vespoli

G|-----8---------------|
D|--------10-8h10p8----|
A|---6--------------11-|
E|---------------------|
     S P   P P       P

G|-----------------------------|------------------|---------------------|
D|-----------------------------|--------------2---|-----------------7---|
A|--------------5--------------|------------------|---------------------|
E|-0---0--3--5--------3---5--5-|--3---2--1--0---0-|-2--2--3---4---5-----|
   S   S  S  S  S     S   S  S    S   S  S  S P S   S  S  S   S   S P

G|-----------------------------|------------------|---------------------|
D|-----------------------------|--------------2---|-----------------7---|
A|--------------5--------------|------------------|---------------------|
E|-0---0--3--5--------3---5--5-|--3---2--1--0---0-|-2--2--3---4---5-----|
   S   S  S  S  S     S   S  S    S   S  S  S P S   S  S  S   S   S P
[ Tab from: http://www.guitartabs.cc/tabs/m/misc_television/seinfield_theme_tab.html ]
G|---------------------------|------------------|---------------------|
D|---------------------------|--------------2---|-----------------7---|
A|--------------5------------|------------------|---------------------|
E|-0---0--3--5------3---5--5-|--3---2--1--0---0-|-2--2--3---4---5-----|
   S   S  S  S  S   S   S  S    S   S  S  S P S   S  S  S   S   S P

G|-----8---------------|
D|--------10-8h10p8----|
A|---6--------------11-|
E|---------------------|
     S P   P P       P

G|-----------------------------|------------------|-------------------|
D|-----------------------------|--------------2---|-------------------|
A|--------------5--------------|------------------|-------------------|
E|-0---0--3--5--------3---5--5-|--3---2--1--0---0-|-2--2--3---4---5---|
   S   S  S  S  S     S   S  S    S   S  S  S P S   S  S  S   S   S 


        S   slap
	P   pop
	h   hammer-on
 	p   pull-off
	^   bend
	~   vibrato
        /   slide 

===================================================================
Comments? Send an e-mail
Comments