Misc Television - Seinfeld Fills Chords & Tabs

 

Seinfeld Fills Chords & Tabs

Misc Television Chords & Tabs

Version: 1 Type: Bass Tab 1 rating
1 star 2 stars 3 stars 4 stars 5 stars
comments

Seinfeld Fills Bass Tab

Here are some seinfeld licks which are played in between scenes
tabbed by: idawg

seinfeld fill 1

g --------------------------------
d ------5-----6-----8-----10------
a --------------------------------
e --3-x---4-5---5h6---7-8---------
    s s p s s p s   p s s p

seinfeld fill 2
[ Tab from: http://www.guitartabs.cc/tabs/m/misc_television/seinfeld_fills_btab.html ]
g --------------------------------
d --------------------------------
a --3h5---3h5---x-----------------
e ------x-----x---1---------------
    p   s p   s p s	

fill 3

g ------5-------------------------
d --------6-----------------------
a --------------------------------
e --2s3---------------------------
    s   p p	

fill 4

g ------4p2-----------------------
d --------------------------------
a --2h3---------------------------
e --------------------------------
    s   p
Comments