Misc Television - Ren And Stimpy Theme Chords & Tabs

 

Ren And Stimpy Theme Chords & Tabs

Misc Television Chords & Tabs

Version: 2 Type: Tab 0 ratings
1 star 2 stars 3 stars 4 stars 5 stars
comments

Ren And Stimpy Theme Tab

e--5---------5-5---5---------5-5-----7----5---5-5---------------
B--7---------7-7---5---------7-7-----7----5---7-7---------------
G--6---------6-6---5---------6-6-----7----5---6-6---------------
D--5---------5-5---4---------5-5-----6----4---5-5---------------
A---------------------------------------------------------------
E---------------------------------------------------------------

chord progression (just strum randomly.  you will know the rhythm when you hear the song)

e-5----5----5-----7---5----------------------------------------------
B-7----5----7-----7---7----------------------------------------------
G-6----5----6-----7---6----------------------------------------------
D-7----4----5-----6---5---------------------------------------------
A---------------------------------------------------------------
E---------------------------------------------------------------

Solo
[ Tab from: http://www.guitartabs.cc/tabs/m/misc_television/ren_and_stimpy_theme_tab_ver_2.html ]
e--------12h14--17-17-17-15-14\12---15p14--12h14p12--------12------------------
B-12h13----------------------------------------------13/15----13-13-13\12------
G-------------------------------------------------------------------------14---
D------------------------------------------------------------------------------
A------------------------------------------------------------------------------
E------------------------------------------------------------------------------


e-------------------------------------------------------12-12-10-10-9-9-7-7-5-5-3-3-2-2
B-13-13-13\12----13-13-13-13-12--------------------------------------------------------
G-------------14----------------14-12--------------------------------------------------
D-------------------------------------14-12-10-10~~~-----------------------------------
A--------------------------------------------------------------------------------------
E--------------------------------------------------------------------------------------


e-0-4-55-3-2-1-0-2-4-5----11-(strum for a while and slide up)-17\----
B-------------------------12----------------------------------18\----
G-------------------------11----------------------------------17\----
D--------------------------------------------------------------------
A--------------------------------------------------------------------
E--------------------------------------------------------------------


Tabbed by Me (bakahentaichikan@msn.com)
Comments