Misc Television - Ren And Stimpy Theme Chords & Tabs

 

Ren And Stimpy Theme Chords & Tabs

Misc Television Chords & Tabs

Version: 1 Type: Tab 0 ratings
1 star 2 stars 3 stars 4 stars 5 stars
comments

Ren And Stimpy Theme Tab

Artist            : Ren & Stimpy
Album             : 
Song              : Opening Theme

Transcribed by    : Tuck
Date              : 04-15-2003
E-mail            : Phishician@aol.com
URL               : 

Note              : 
Tuning            : Standard


[Intro]
e|-------------------------------------------------------------------------|
B|-------------------------------------------------------------------------|
G|-------------------------------------------------------------------------|
D|-------------------------------------------------------------------------|
A|-------------------------------------------------------------------------|
E|-18-17-16-15-14-13-12-11-10-9-8-7-6--------------------------------------|
Bass
[ Tab from: http://www.guitartabs.cc/tabs/m/misc_television/ren_and_stimpy_theme_tab.html ]
[chords]
e|---6--------6------8-----------------------------------------------------|
B|---6--------6------8-----------------------------------------------------|
G|---7--------6------8-----------------------------------------------------|
D|---6--------5------7-----------------------------------------------------|
A|---8--------6------8-----------------------------------------------------|
E|---6---------------------------------------------------------------------|


[guitar solo]
e|--------------6--6--6----------------------------------------------------|
B|--------6-8------------9-8-6--9-8-6------------6-------------------------|
G|--6-7------------------------------------8--6--8----6-6 6-6-5-3-6-6-6----|
D|-------------------------------------------------------------------------|
A|-------------------------------------------------------------------------|
E|-------------------------------------------------------------------------|


[solo cont/ end]
e|---------------------6666543210----------5--6-6-/----13------------------|
B|------------------------------------------6--8-------6-/----13-----------|
G|--6-5-3-1-------------------------------------------7-/---13-------------|
D|-------------1--1-------------------------------------6-/---12-----------|
A|--------------------------------------------------------8-/--13----------|
E|--------------------------------------------------------6-/--------------|



==========================================================================
 Tab created with Kastor's Guitar Tabulature Manager 3.0 (TabIt Quick 1.0)
          You can get it for FREE from >>www.inet.hr/~kpetak
Comments