Misc Television - Ren And Stimpy Show Theme Chords & Tabs

 

Ren And Stimpy Show Theme Chords & Tabs

Misc Television Chords & Tabs

Version: 1 Type: Bass Tab 0 ratings
1 star 2 stars 3 stars 4 stars 5 stars
comments

Ren And Stimpy Show Theme Bass Tab

   
Subject: 
            Ren and Stimpy Bass Line
From: 
            Eric Schmeling 



G---0h2--1--0--------------------------------------| 
D--------------4--3--2--1--0-----------------------| 
A-------------------------------4--3--2--1--0------| 
E--------------------------------------------------| 

this bass intro is on the CD 

G-----------------------------------------------| 
D----------------0-----------------0------------| 
A---0----0--0---------0--0--------------0--0----| 
E-----------------------------0-----------------| 

follow the guitar 

G------------------| 
D------------------| 
A---77--6--5-------| 
E---------------8--| 

guitar plays "A"  (A13* sounds really great over this) 

G---------------------------------------------------| 
D------------------------4--7--5--4-----------------| 
A---------5--6--7--5--7--------------7--5-----3--4--| 
E---5--8-----------------------------------5--------| 
[ Tab from: http://www.guitartabs.cc/tabs/m/misc_television/ren_and_stimpy_show_theme_btab.html ]
guitar plays "D"               guitar plays "A" 
(D9** sounds very nice)        (again A13* goes nicely here) 

G---------------------------------------------------| 
D---------4--4--5--5--6--6--7--7--6--6--5--5--4--4--| 
A---5--5--------------------------------------------| 
E---------------------------------------------------| 

guitar plays "E"            guitar plays "D" 
(try E7#9***)               (Dm7**** sounds really cool) 
G---------------------------------------------------| 
D---------4--4--5--5--6--6--7--6--5--4--------------| 
A---7--7--------------------------------7--6--5-----| 
E------------------------------------------------8--| 
  

*A13          **D9          ***E7#9       ****Dm7 
e----5----|   e----5----|   e----X----|   e----5----| 
b----7----|   b----5----|   b----8----|   b----6----| 
g----6----|   g----5----|   g----7----|   g----5----| 
d----5----|   d----4----|   d----6----|   d----7----| 
a----0----|   a----5----|   a----7----|   a----5----| 
e----X----|   e----X----|   e----X----|   e----X----| 

Czech out http://www.geocities.com/SunsetStrip/Palms/5576/index.html 
  

Comments