Misc Television - Red Vs Blue Theme Chords & Tabs

 

Red Vs Blue Theme Chords & Tabs

Misc Television Chords & Tabs

Version: 1 Type: Tab 1 rating
1 star 2 stars 3 stars 4 stars 5 stars
comments

Red Vs Blue Theme Tab

   
This song is simple and easy... but fun for everyone.  Red Vs blue ROCKS.


Am     
-------------------
----1--1----1--1---
----2--2----2--2---
----2--2----2--2---  X2
-0-----------------
---------0---------

[ Tab from: http://www.guitartabs.cc/tabs/m/misc_television/red_vs_blue_theme_tab.html ]
F         E
---1--1--------------
---1--1------0--0----
---2--2------1--1----
---3--3------2--2----
---3--3------2--2----
1---------0----------


Am
---------------------
---1------------------
---2------------------
---2------------------
---0------------------
---0------------------



Strum All Chords.


Kineticeq @ yahoo.com  for questions
Comments