Misc Television - Powerpuff Girls Theme Chords & Tabs

 

Powerpuff Girls Theme Chords & Tabs

Misc Television Chords & Tabs

Version: 1 Type: Tab 0 ratings
1 star 2 stars 3 stars 4 stars 5 stars
comments

Powerpuff Girls Theme Tab

Powerpuff Girls theme
Tabbed by springwaffle

e---------3-6-5--3---------------------15-18-18--20--------------------
b-1--1--4-------------10h11h13--13--16-------------------------------1-
g---------------------------------------------------------------0-3--1-
d-------------------------------------------------------------1--------
a----------------------------------------------------/--3--3-----------
e----------------------------------------------------------------------
[ Tab from: http://www.guitartabs.cc/tabs/m/misc_television/powerpuff_girls_theme_tab.html ]
e-------------------
b-------------------
g------------0------
d------1--------4---
a-3-------3---------
e-------------------

e-----------------------6-5--3------6-5---------------------11-10----
b---------------------4-----------4--------10h11h13--13--11-------13-
g---------0-3-2--0--5-----------5------------------------------------
d-------1------------------------------------------------------------
a-3--3---------------------------------------------------------------
e--------------------------------------------------------------------

Corrections/comments/etc. can be sent to: springwaffle@comcast.net
Comments