Misc Television - Pink Panther Chords & Tabs

 

Pink Panther Chords & Tabs

Misc Television Chords & Tabs

Version: 6 Type: Tab 0 ratings
1 star 2 stars 3 stars 4 stars 5 stars
comments

Pink Panther Tab

song: pink panther
tabbed by jeff h.(y2jc_28@yahoo.com)
             hey, this just amazing. use distortion &
it will sound awesome. Enjoy!

riff:
e-----------------------------------------------------------------|
b-----------------------------------------------------------------|
g--------------------------5-/4-----------------------------------|
d-6-/7-8-/9-4-/5------4-/5--------5-9-/8~-/7-p5-------------------|
a-4-/5-6-/7------6-/7-----------7---------------h7-p5-h7~---------|
e-----------------------------------------------------------------|

e-----------------------------------------------------------------|
b-----------------------------------------------------------------|
g--------------------------5-/4-----9-/8~-ph1~-ph2~-ph1-----------|
d-6-/7-8-/9-4-/5------4-/5--------5-------------------------------|
a-4-/5-6-/7------6-/7-----------7---------------------------------|
e-----------------------------------------------------------------|
[ Tab from: http://www.guitartabs.cc/tabs/m/misc_television/pink_panther_tab_ver_6.html ]
e-----------------------------------------------------------------|
b-----------------------------------------------------------------|
g--------------------------5-/4-----------------------------------|
d-6-/7-8-/9-4-/5------4-/5--------5-9-/8~-/7-p5-------------------|
a-4-/5-6-/7------6-/7-----------7---------------h7-p5-h7~---------|
e-----------------------------------------------------------------|

e-----------------------------------------------------------------|
b-----------------------------------------------------------------|
g-----------(7)-h9-7----------------------------------------------|
d-6-/7-8-/9----------9-8-7----(7)-h8-(7)-h8-(7)-h8-(7)-h8---------|
a-4-/5-6-/7----------------10-------------------------------------|
e-----------------------------------------------------------------|

e-----------------------------------------------------------------|
b-----------------------------------------------------------------|
g------------9^(1/4)-p7-----7ph-----------------------------------|
d-5---------------------9ph-----9ph-8ph-7ph-----------------------|
a---7-5-7-7~--------------------------------10-7------------------|
e-----------------------------------------------------------------|

e--------------------------------------------#5-------------------|
b--------------------------------------------#5-tremolo-----------|
g--------------------------------------------#5--------9----------|
d-5---------------------------------2------------------9----------|
a---7-5-7-7~-7-p5---5---------------2-tremolo----------7----------|
e-----------------7---7-p5-p0-h3-p0-0-----------------------------|
that's all.



Comments