Misc Television - Moonlight Shadow Main Theme Chords & Tabs

 

Moonlight Shadow Main Theme Chords & Tabs

Misc Television Chords & Tabs

Version: 1 Type: Tab 0 ratings
1 star 2 stars 3 stars 4 stars 5 stars
comments

Moonlight Shadow Main Theme Tab

Hello, this is a Tab arranged for Guitar of the well-known main theme

"MOONLIGHT SHADOW"


Have fun with it! Feel free to copy it!
I always like to know if there's anyone out who downloaded this TAB, and i always like to get feedback what you think about it.
mailto: winter@gmx.com

//Juli 2002






******remember to enlarge the window, so that the lines aren't split*****


H|--------------------------------------------------------------------------------|
G|----------------9---------------------9-------11-11-9---------------------------|
D|-9-11-12--12-12---12-11-9-9--11-11-12---11-12---------11------------------------|

[ Tab from: http://www.guitartabs.cc/tabs/m/misc_television/moonlight_shadow_main_theme_tab.html ]
H|--------------------------------------------------------------------------------|
G|-----------9---------------------9-------11-11-9--------------------------------|
D|-12--12-12---12-11-9-9--11-11-12---11-12---------11-----------------------------|


H|----10-----------------------------------------------------10-------------------|
G|-11----12-12-11-9-9-11-9--11-9---------------9--------9-11----12-12-11-9-9------|
D|-------------------------------12-12-9-12-12---12--12----------------------11-9-|


H|--------------------------------------------------------------------------------|
G|--------------------9-----------------------------------------------------------|
D|-9-11-12-11-9-11-12-------------------------------------------------------------|
Comments