Misc Television - Mario Bros Theme Chords & Tabs

 

Mario Bros Theme Chords & Tabs

Misc Television Chords & Tabs

Version: 1 Type: Tab 1 rating
1 star 2 stars 3 stars 4 stars 5 stars
comments

Mario Bros Theme Tab

song: mario bros.
band: no band
tabbed jeff h.(y2jc_28@yahoo.com)
            hey, this pretty cool. Enjoy!
riff:octaves in the beginning, dist. on the following
e-------------------------------|----------------------------------|
b-------------------------------|----------------------------------|
g-------------------------------|----------------------------------|
d---9---6---7---9---6---7-------|---5---2---3---5---2---3----------|
a-------------------------------|----------------------------------|
e-7---4---5---7---4---5---------|-3---0---1---3---0---1------------|

e-12-12-12----12-15------------------------------------|
b----------13------------13------------12--------------|
g-------------------12v------12-----14----15---14--12--|
d--------------------------------14--------------------|
a------------------------------------------------------|
e------------------------------------------------------|
[ Tab from: http://www.guitartabs.cc/tabs/m/misc_television/mario_bros_theme_tab.html ]
e-12h15--15/17--14-15-12-----------|
b------------------------14-15-12--|
g----------------------------------|
d----------------------------------|
a----------------------------------|
e----------------------------------|

e-15-14-13-----------------------|-15-14-13--------20--20--20------|
b----------16-17-------13----13--|----------16-17------------------|
g----------------13h14----14-----|---------------------------------|
d--------------------------------|---------------------------------|
a--------------------------------|---------------------------------|
e--------------------------------|---------------------------------|

e-15-14-13-------------------------------------------|
b----------16-17-------13----13--15--16---15---13vv--|
g----------------13h14----14-------------------------|
d----------------------------------------------------|
a----------------------------------------------------|
e----------------------------------------------------|
that's all.
 



Comments