Misc Television - Jackass Theme Chords & Tabs

 

Jackass Theme Chords & Tabs

Misc Television Chords & Tabs

Version: 3 Type: Tab 1 rating
1 star 2 stars 3 stars 4 stars 5 stars
comments

Jackass Theme Tab

   
im not sureif this is all correct so if  you find a mistake email
me and ill fix them. email is cky_freak_1@yahoo.com





Intro

E)--------------------------
B)-3---5---7---7---5---3---1
G)-4---5---7---7---5---4---2
D)--------------------------
A)--------------------------
e)--------------------------
[ Tab from: http://www.guitartabs.cc/tabs/m/misc_television/jackass_theme_tab_ver_3.html ]
Bridge 1
                
E)--------
B)--------
G)-0-0----  Do this four times
D)-----2-0
A)--------
e)--------

Bridge 2

E)------------
B)------------
G)-4-5-4-7-5-7
D)------------
A)------------
e)------------

Ending

E)-------------------
B)-------------------
G)-5-4-2-------------
D)-------------------
A)-------------------
e)-------3---5/6--6\3
Comments