Misc Television - Jackass Theme Chords & Tabs

 

Jackass Theme Chords & Tabs

Misc Television Chords & Tabs

Version: 1 Type: Tab 1 rating
1 star 2 stars 3 stars 4 stars 5 stars
comments

Jackass Theme Tab

                           Jackass Theme

 e-----------------------------------------------------------
 B--3-5-7----5-3-1-0-0-0-1-3-0-0-0-3-5-7-3-3-5-7-5-3-1-0-0-0-
 G--4-5-7-7--5-4-2-0-0-0-2-4-0-0-0-4-5-7-4-4-5-7-5-4-2-0-0-0-
 D-----------------------------------------------------------
 A-----------------------------------------------------------
 E-----------------------------------------------------------
[ Tab from: http://www.guitartabs.cc/tabs/m/misc_television/jackass_theme_tab.html ]
 e-----------------------------------------------------------
 B--1-3-0-0-0-3-5-7-3-3-5-7-5-3-1-0--------------------------
 G--2-4-0-0-0-4-5-7-4-4-5-7-5-4-2-0--------------------------
 D-----------------------------------------------------------
 A-----------------------------------------------------------
 E------------------------------------5/6---------3----------

 There it is. It's really easy. If you can't figure it out just 
 watch the show.  Any questions or comments e-mail me.  WeirdDan27@AOL.com  
Comments