Misc Television - Inspector Gadget Theme Chords & Tabs

 

Inspector Gadget Theme Chords & Tabs

Misc Television Chords & Tabs

Version: 1 Type: Tab 3 ratings
1 star 2 stars 3 stars 4 stars 5 stars
comments

Inspector Gadget Theme Tab

   
Inspector Gadget theme
Tabbed by springwaffle

Some parts of this I'm not too sure about (*) but for the most
part it is correct. I'm for sure it's more accurate and more complete 
than the other tabs on this site.

  Intro
e--------------------------------------------------------------------
b---------------------------------------------------0~~~-------------
g----------------------2-1~~~---------------------2-----2p1----0-----
d-------0-2--------0-2-------------0-2--------0-2-----------2----4-0-
a-0-2-3------0-2-3-----------0-2-3------0-2-3------------------------
e--------------------------------------------------------------------

  Intro (contd)
e-----------------------------
b-----------------------------
g-2p1---0---------------------
d-----2---4-0-3-2-----2-0-----
a-----------------2-3-----3-2-
e-----------------------------

  Verse 1                                                 A    E A
e-------------------------------------------------------------------
b-------------------------------------------------------------------
g--------------------------------2-1----------------------2----9-14-
d-------0-2---1---0----------0-2------------0-2---1---0---2----9-14-
a-0-2-3-----3---2---3--0-2-3----------0-2-3-----3---2---3-0----7-12-
e-------------------------------------------------------------------

  Fill*
e-------5---5-8\-
b-6---6---6------
g---5------------
d----------------
a----------------
e----------------
[ Tab from: http://www.guitartabs.cc/tabs/m/misc_television/inspector_gadget_theme_tab.html ]
  Verse 2
e-------------------------------------------------------------------------
b-------------------------------------------------------------------------
g--------------------------------2-1--------------------------------------
d-------0-2---1---0----------0-2------------0-2---1---0-------------------
a-0-2-3-----3---2---3--0-2-3----------0-2-3-----3---2---3-----------------
e---------------------------------------------------------1-0-1-0-5-4-8-7-

  Bridge* (Go Gadget! Go!)
e-5------5------------------------5------5------------------------
b----6-8----6-8-8-6-5---6-6-5--------6-8----5-8-8-6-5---5-5-------
g---------------------7-------7-5---------------------7-----7-5-4-
d-----------------------------------------------------------------
a-----------------------------------------------------------------
e-----------------------------------------------------------------

  Verse 3
e-----------------------------------------------------------------------------
b-----------------------------------------------------------------------------
g--------------------------------2-1------------------------------------------
d-------0-2---1---0----------0-2------------0-2---1---0-----------------------
a-0-2-3-----3---2---3--0-2-3----------0-2-3-----3---2---3-----------------8-7-
e---------------------------------------------------------1--0--5--4--8-7-----

  End        E A
e------------------------
b------------------------
g------------9-14--------
d------------9-14--------
a-0----------7-12--------
e---4-3-2-1--------1~~~~~

Corrections/comments/etc. can be sent to: springwaffle@comcast.net
Comments