Misc Television - Insomniac Theme Song Chords & Tabs

 

Insomniac Theme Song Chords & Tabs

Misc Television Chords & Tabs

Version: 1 Type: Tab 1 rating
1 star 2 stars 3 stars 4 stars 5 stars
comments

Insomniac Theme Song Tab

Insomniac with Dave Attell theme song


e|----------------------|-----------------------|
B|----------------------|-----------------------|
G|----------------------|-----------------------|
D|--9--12-11----9-------|--------9--12h14p12-11-|
A|-----------13---9-10--|--9-8-9----------------|
E|----------------------|-----------------------|
[ Tab from: http://www.guitartabs.cc/tabs/m/misc_television/insomniac_theme_song_tab.html ]
e|----------------------|-----------------------|
B|----------------------|-----------------------|
G|---------------9-11---|--11---9p7-------------|
D|--9-8-9--11-12--------|-----9-----11--8h9h11-9|
A|----------------------|-----------------------|
E|----------------------|-----------------------|

e|-----|
B|--12-|
G|-----|
D|-----|
A|-----|
E|-----|

there you go. enjoy

tabbed by pegasus4704
Comments