Misc Television - Ich Lebe From Starmania Chords & Tabs

 

Ich Lebe From Starmania Chords & Tabs

Misc Television Chords & Tabs

Version: 1 Type: Tab 0 ratings
1 star 2 stars 3 stars 4 stars 5 stars
comments

Ich Lebe From Starmania Tab

   
ARTIST: Christina
TITEL:  Ich lebe


#----------------------------------PLEASE NOTE----------------------------------#
# This file is the author's own work and represents their interpretation of the #
# song. You may only use this file for private study, scholarship, or research. #
#-------------------------------------------------------------------------------#


---------------------------------------------------------------------------------
tab by:  gmork

comment: a nice little song from the televisiion show starmania
         use the intro for the verse, the piano pattern on the record is quite
         similar
         for the chorus I use an easy strumming pattern
---------------------------------------------------------------------------------

[ Tab from: http://www.guitartabs.cc/tabs/m/misc_television/ich_lebe_from_starmania_tab.html ]
CHORDS:
            E A d g h E
        Em: 0 2 2 0 0 0 
        D : 0 0 0 2 3 2
        C : 0 3 2 0 1 0
        Hm: x 2 4 4 3 2
        
---------------------------------------------------------------------------------
INTRO
  Em                       d
e 0--------0--------------|---------2h3p2-0--------|
h ---------------0--------|------3-----------3-----|
g ------------------0-----|---2--------------------|
d ------2--------------2--|0-----------------------|
A ------------------------|---------------------0--|
E ------------------------|------------------------|
  1  +  2  +  3  +  4  +  |1  +  2  +  3  +  4  +  |
  
  
  C                        Hm
e ---------------0--------|2--------------2--------|
h 1--------3-----------0--|---------0-h3-----3-----|
g ------0-----------------|------------------------|
d ---2--------------------|------4--------------0--|
A 3-----------------------|2-----------------------|
E ------------------------|------------------------|
  1  +  2  +  3  +  4  +  |1  +  2  +  3  +  4  +  |
  
---------------------------------------------------------------------------------
VERSE

Em           d        C               Hm
Du bist die Qual ich war schon immer Masochist
Em         d          C               Hm
Die Bombe tickt hast mich entführt du Terrorist
Em               d   C                  Hm
Schmeckst bittersüß saugst mich aus wie ein Vampir
Em          d         C                 Hm          Hm
Ich bin verhext kann einfach nicht mehr los von dir

---------------------------------------------------------------------------------
CHORUS

     Em               d
Ich lebe weil Du mein Atem bist
     C                 Hm
Bin müde will Du mein Kissen bist
     Em                    d
Bin durstig weil Du mein Wasser bist
    C                   Hm
Du bist für mich mein zweites ich
     Em  (INTRO)
Ich lebe

---------------------------------------------------------------------------------
VERSE 2
Du bist das Gift doch das Gegengift wirkt gegen mich
Du bist das Geld ich geb' dich aus es lohnt sich nicht
Du bist der Rausch und ich will noch mehr Alkohol
Du bist die Welt wo Schatten Licht gefangen  hält

---------------------------------------------------------------------------------
CHORUS

---------------------------------------------------------------------------------
VERSE 3
Ich steh an der Front, gedankenleerer Horizont
Du bist verliebt, wie schön für dich warum sagst du's nie

---------------------------------------------------------------------------------
CHORUS 2x

---------------------------------------------------------------------------------
Comments