Misc Television - Daria Theme Chords & Tabs

 

Daria Theme Chords & Tabs

Misc Television Chords & Tabs

Version: 1 Type: Tab 0 ratings
1 star 2 stars 3 stars 4 stars 5 stars
comments

Daria Theme Tab

   
Author/Artist: Daria	
Title: Theme of a Daria
Transcribed by: Vladimir Belmont 
Email: urban_chaos54@hotmail.com

Drop-E (E, A, D, G, B, E)
**Well I think this a 100% correct**

 La, la, la, la, la                                                             
--------------------|---------------------|------------------|
--------------------|---------------------|------------------|
--------------------|---------------------|------------------|
----------7---------|--9------7-----------|------------------|
---------------8----|----------------8----|------------------|
--------------------|---------------------|------------------|
                                                               
------------------|------------------|------------------------|
------------------|------------------|------------------------|
------------------|------------------|------------------------|
------------------|------------------|--3----3--3--3--3--3----|
------------------|------------------|--3----3--3--3--3--3----|
------------------|------------------|--1----1--1--1--1--1----|


                                                  
------------------------|------------------------|
------------------------|------------------------|
------------------------|------------------------|
--6----6--6--6--6--6----|--3----3--3--3--3--3----|
--6----6--6--6--6--6----|--3----3--3--3--3--3----|
--4----4--4--4--4--4----|--1----1--1--1--1--1----|


                                                  
------------------------|------------------------|
------------------------|------------------------|
------------------------|------------------------|
--6----6--6--6--6--6----|--3----3--3--3--3--3----|
--6----6--6--6--6--6----|--3----3--3--3--3--3----|
--4----4--4--4--4--4----|--1----1--1--1--1--1----|


                                                                    
------------------------|--------------------|---------------------|
------------------------|--------------------|---------------------|
------------------------|--------------------|---------------------|
--8----8--8--8--8--8----|--10----------------|--8------6------8----|
--8----8--8--8--8--8----|--10----------------|--8------6------8----|
--6----6--6--6--6--6----|--8-----------------|--6------4------6----|


                                           
--------------------|---------------------|
--------------------|---------------------|
--------------------|---------------------|
--10----------------|--8------6------8----|
--10----------------|--8------6------8----|
--8-----------------|--6------4------6----|


                                                        
------------------------------|------------------------|
------------------------------|------------------------|
------------------------------|------------------------|
--11----11--11--11--11--11----|--6----6--6--6--6--6----|
--11----11--11--11--11--11----|--6----6--6--6--6--6----|
--9-----9---9---9---9---9-----|--4----4--4--4--4--4----|

[ Tab from: http://www.guitartabs.cc/tabs/m/misc_television/daria_theme_tab.html ]
                                                  
------------------------|------------------------|
------------------------|------------------------|
------------------------|------------------------|
--8----8--8--8--8--8----|--8----8--8--8--8--8----|
--8----8--8--8--8--8----|--8----8--8--8--8--8----|
--6----6--6--6--6--6----|--6----6--6--6--6--6----|


                                                        
------------------------------|------------------------|
------------------------------|------------------------|
------------------------------|------------------------|
--11----11--11--11--11--11----|--6----6--6--6--6--6----|
--11----11--11--11--11--11----|--6----6--6--6--6--6----|
--9-----9---9---9---9---9-----|--4----4--4--4--4--4----|


                                                  
------------------------|------------------------|
------------------------|------------------------|
------------------------|------------------------|
--8----8--8--8--8--8----|--8----8--8--8--8--8----|
--8----8--8--8--8--8----|--8----8--8--8--8--8----|
--6----6--6--6--6--6----|--6----6--6--6--6--6----|


                                                        
------------------------------|------------------------|
------------------------------|------------------------|
------------------------------|------------------------|
--11----11--11--11--11--11----|--6----6--6--6--6--6----|
--11----11--11--11--11--11----|--6----6--6--6--6--6----|
--9-----9---9---9---9---9-----|--4----4--4--4--4--4----|


                                                  
------------------------|------------------------|
------------------------|------------------------|
------------------------|------------------------|
--8----8--8--8--8--8----|--8----8--8--8--8--8----|
--8----8--8--8--8--8----|--8----8--8--8--8--8----|
--6----6--6--6--6--6----|--6----6--6--6--6--6----|


                                                        
------------------------------|------------------------|
------------------------------|------------------------|
------------------------------|------------------------|
--11----11--11--11--11--11----|--6----6--6--6--6--6----|
--11----11--11--11--11--11----|--6----6--6--6--6--6----|
--9-----9---9---9---9---9-----|--4----4--4--4--4--4----|


                                                  
------------------------|------------------------|
------------------------|------------------------|
------------------------|------------------------|
--8----8--8--8--8--8----|--8----8--8--8--8--8----|
--8----8--8--8--8--8----|--8----8--8--8--8--8----|
--6----6--6--6--6--6----|--6----6--6--6--6--6----|


                                                           
--------------------|------------------|------------------|
--------------------|------------------|------------------|
--------------------|------------------|------------------|
--11----------------|------------------|------------------|
--11----------------|------------------|------------------|
--9-----------------|------------------|------------------|

 La, la, la, la, la                                                             
--------------------|---------------------|------------------|
--------------------|---------------------|------------------|
--------------------|---------------------|------------------|
----------7---------|--9------7-----------|------------------|
---------------8----|----------------8----|------------------|
--------------------|---------------------|------------------|

Bueno espero que esta si la publiquen no como la de “Did my time” que no la publicaron bueno
Comments