Misc Television - Crank Yankers Theme Chords & Tabs

 

Crank Yankers Theme Chords & Tabs

Misc Television Chords & Tabs

Version: 1 Type: Tab 0 ratings
1 star 2 stars 3 stars 4 stars 5 stars
comments

Crank Yankers Theme Tab

Song: Crank Yankers Theme
Tabbed By: Mark M.
Standard Tuning

Intro
(Repat as needed) On Piano Originally

|----------------------------------------------------------------------|
|---------8--8--10--10--12--12------10-----10-----8--8-------10---10---|
|-----7--------------------------7------7------7--------7--------------|
|----------------------------------------------------------------------|
|----------------------------------------------------------------------|
|----------------------------------------------------------------------|

|----------------------------------------|
|-----------12----12------10------10-----|
|-----7----------------7-------7-------7-|
|----------------------------------------|
|----------------------------------------|
|----------------------------------------|
[ Tab from: http://www.guitartabs.cc/tabs/m/misc_television/crank_yankers_theme_tab.html ]
DISTORTION PART
Play X2
|------------------------------------------------------------|
|------------------------------------------------------------|
|------------------------------------------------------------|
|--------------5----------10---------------------------------|
|--------------5 (X 16)----8--(X 16)-------------------------|
|--------------3-----------8---------------------------------|

Then....

Play X2
|------------------------------------------------------------|
|------------------------------------------------------------|
|------------------------------------------------------------|
|--------------2----------10---------------------------------|
|--------------2-(X 8)-----8--(X 8)--------------------------|
|--------------0-----------8---------------------------------|

Next....

|------------------------------------------------------------|
|------------------------------------------------------------|
|------------------------------------------------------------|
|--------------5----------10---------------------------------|
|--------------5 (X 16)----8--(X 16)-------------------------|
|--------------3-----------8---------------------------------|

End on This..

|---|
|---|
|---|
|-5-|
|-5-|
|-3-|


Rate Pease.... Later.
Comments