Misc Television - Coca Cola Theme Chords & Tabs

 

Coca Cola Theme Chords & Tabs

Misc Television Chords & Tabs

Version: 3 Type: Tab 0 ratings
1 star 2 stars 3 stars 4 stars 5 stars
comments

Coca Cola Theme Tab

------------------------------------------------------------------------------|
----0--0--0--0--1--0-----------3--0-----0--0--0--0--1--0-----------0-----0----|
-0--------------------2--2--2--------0--------------------2--2--0-----0-------|
------------------------------------------------------------------------------|
------------------------------------------------------------------------------|
------------------------------------------------------------------------------|

[ Tab from: http://www.guitartabs.cc/tabs/m/misc_television/coca_cola_theme_tab_ver_3.html ]
----------------------------------------------------0-------------------------|
-0--0--0--1--0-----------3--0-----0--0--0--0--1--1-----3--0--3-----0--0--0----|
----------------2--2--2--------0--------------------------------0-------------|
------------------------------------------------------------------------------|
------------------------------------------------------------------------------|
------------------------------------------------------------------------------|


-------------------------3----------------------------------------------------|
-0--1--0-----------3--0--3----------------------------------------------------|
----------2--2--2--------0----------------------------------------------------|
-------------------------0----------------------------------------------------|
------------------------------------------------------------------------------|
------------------------------------------------------------------------------|
Comments