Misc Television - Coca Cola Theme Song Chords & Tabs

 

Coca Cola Theme Song Chords & Tabs

Misc Television Chords & Tabs

Version: 1 Type: Tab 0 ratings
1 star 2 stars 3 stars 4 stars 5 stars
comments

Coca Cola Theme Song Tab

-------------------------------------------------------------------------------------
----0--0--0--0--1--1--0------------3--0------0--0--0--0--1--1--0-----------0-----0---
-0---------------------- 2--2--2----------0-----------------------2--2--0-----0------
-------------------------------------------------------------------------------------
-------------------------------------------------------------------------------------
-------------------------------------------------------------------------------------
                                                                              
[ Tab from: http://www.guitartabs.cc/tabs/m/misc_television/coca_cola_theme_song_tab.html ]
----------------------------------------------------0-------------------------------
-0--0--0--1--1--0-----------3--0-----0--0--0--0--1--1-----3--0--3-----0--0--0-------
-------------------2--2--2--------0--------------------------------0----------------
------------------------------------------------------------------------------------
------------------------------------------------------------------------------------
------------------------------------------------------------------------------------
                                                                              

-------------------------3----------------------------------------------------------
-0--1--0-----------3--0--3----------------------------------------------------------
----------2--2--2--------0----------------------------------------------------------
-------------------------0----------------------------------------------------------
------------------------------------------------------------------------------------
------------------------------------------------------------------------------------
Comments