Misc Television - Celebrity Deathmatch Theme Chords & Tabs

 

Celebrity Deathmatch Theme Chords & Tabs

Misc Television Chords & Tabs

Version: 1 Type: Tab 0 ratings
1 star 2 stars 3 stars 4 stars 5 stars
comments

Celebrity Deathmatch Theme Tab

THE CELEBRITY DEATHMATCH THEME!

By: Derrick Barth (Dammit5001@aol.com, screen name: Dammit5001)

My guitar tabs site: http://www.eyeonrawk.homestead.com/home.html

I always loved this theme and finally sat down and realized how
easy it was!

Ok, I'll admit it, I don't know the intro part,
but this is the coolest part anywayz....
E|-------------------------------------------------------------------|
B|-------------------------------------------------------------------|
G|-------------------------------------------------------------------|
D|-------------------------------------------------4-4-4-4-x-5-5-5---|
A|-------------------------------------------------4-4-4-4-x-5-5-5---|
E|---2-0-2-0-2--2-0-2-3-2--2-0-2-3-2--2-0-2-3-2--0-2-2-2-2-x-3-3-3---|
[ Tab from: http://www.guitartabs.cc/tabs/m/misc_television/celebrity_deathmatch_theme_tab.html ]
Then play....
E|-------------------------------------------------------------------|
B|-------------------------------------------------------------------|
G|-------------------------------------------------------------------|
D|-------------------------------------------------6-6-6-6-x-7-7-7---|
A|-------------------------------------------------6-6-6-6-x-7-7-7---|
E|---4-2-4-2-4--4-2-4-5-4--4-2-4-5-4--4-2-4-5-4--2-4-4-4-4-x-5-5-5---|

After alternating between those two riffs, end with...
E|------------------------------|
B|------------------------------|
G|------------------------------|
D|-----------7-6-6-let--2-/-4---|
A|-----------7-6-6-ring-2-/-4---|
E|---0-2-3---5-4-4------0-/-2---|

It's that easy! Don't bother making corrections, it's not like it's
some famous song or anything so I wouldn't bother.....
Comments