Misc Television - Buffy Correct Chords & Tabs

 

Buffy Correct Chords & Tabs

Misc Television Chords & Tabs

Version: 1 Type: Tab 0 ratings
1 star 2 stars 3 stars 4 stars 5 stars
comments

Buffy Correct Tab

   
e|----------------|----------------|----------------|----------------|
B|----------------|----------------|----------------|----------------|
G|-3---5---6------|----------------|-8s--10--8--6--5|----------------|
D|-----------6----|66---8--10---6--|----------------|----------------|
A|----------------|----------------|----------------|----------------|
E|----------------|----------------|----------------|----------------|

second part
[ Tab from: http://www.guitartabs.cc/tabs/m/misc_television/buffy_correct_tab.html ]
e|----------------|----------------|----------------|----------------|
B|----------------|----------------|----------------|----------------|
G|-3r--5r--6r-----|----------------|-8sr-10r-8r-6r-5r|----------------|
D|-----------6r---|66---8r-10r--6r-|----------------|----------------|
A|----------------|----------------|----------------|----------------|
E|----------------|----------------|----------------|----------------|


this is my first ever tab it is correct the (s) means slide and the 
(r) means repeat.

thnx e-mail me steadler123@hotmail.com, id love to know your coments!

steadler B)
Comments