Misc Television - Blues Brothers Chords & Tabs

 

Blues Brothers Chords & Tabs

Misc Television Chords & Tabs

Version: 2 Type: Tab 0 ratings
1 star 2 stars 3 stars 4 stars 5 stars
comments

Blues Brothers Tab

These are two differnt versions of the Blues Brothers. 
They are only my second tab. The first one is REALLY 
easy but the next is a bit harder,(but still really easy)!
[ Tab from: http://www.guitartabs.cc/tabs/m/misc_television/blues_brothers_tab_ver_2.html ]
e -----------------------------------------------------
b -----------------------------------------------------
g -----------------------------------------------------
D ---------------------------0-------------------------
A ------------0----0-0-2-0-3---3-----------------------
E 0-0-2-0-3-0---3--------------------------------------



e -----------------------------------------------------
b -----------------------------------------------------
g -----------------------------------------------------
D -----------------------------------------------------
A ----------------0-0-2-0-3-5-4------------------------
E 0-0-2-0-3-0-5-4--------------------------------------

Any comments or suggestions email me at
yiddly_hop@hotmail.com
Comments