Misc Television - Big Show Wwf Chords & Tabs

 

Big Show Wwf Chords & Tabs

Misc Television Chords & Tabs

Version: 1 Type: Tab 0 ratings
1 star 2 stars 3 stars 4 stars 5 stars
comments

Big Show Wwf Tab

  This is my first tab....  It's for WWF wrestler, The Big Show
There another kewl guitar solo going on in the background of this
but i damn sure cant figure that out,   so just enjoy the basic version of it

listen to the cd and get the timing right....


WELLLL  It's the BIG SHOW
e|---------------------------------------------------||
b|--The pace is one, one-two one-two one-two---------|
g|--------------(X3)---------------------------------|
d|-2---2-2-2-2---------------------------------------|
a|-2---2-2-2-2---------------------------------------|
e|-0---0-0-0-0---------------------------------------|


(riff thing)   yeah theres a big bad show tonight ......
|----------------------------------|
|----------------------------------|
|----------------------------------|
|---0-0--- 0 ^2--------------------|
|-2-----2--------------------------|
----------------------------------


Right after the second "its the big showwww"  (come on crank it up and turn out all the lights)  it goes up to this
[ Tab from: http://www.guitartabs.cc/tabs/m/misc_television/big_show_wwf_tab.html ]
|------------------------------------------------|
|------------------------------------------------|
|--------------------2--2-2----------------------|
|---0-0---0 ^ 2------2--2-2----------------------|
|-2-----2------------0--0-0----------------------|
|------------------------------------------------|

 
just play that a bunch of times  untill u get to the bridge

Welll get ready for something, that u'll never know......
|---------------------------------------------------|
|---------------------------------------------------|
|---------------- (Slide)---------------------------|
|--9-----9-----------------------5---7--------------|
|--9-----9-----------------------5---7--------------|
|--7-----7-----------------------3---5--------------|

You wont see it coming, but i promiss you'll know
---------------------------------------------------
---------------------------------------------------
--------- (Slide)----------------------------------
--9-----9---------------5---7--------------5----2----2-2-2-2---
--9-----9---------------5---7--------------5----2----2-2-2-2----
--7-----7---------------3---5--------------3----0----0-0-0-0---



Here are the lyrics:

Wellll
well its the big show
Yes there's a big bad show tonight (dawg)
yeah it's the big show
come on crank it up, and turn on all the lights  (yall)
oh  well get ready for something, that you'll never know
you wont see it comin'
but i promiss you'll know
It's the BIG show!     

WWF rulez!

email me if ya want ... shawnhaze316@aol.com
Comments