Misc Television - Bbc Snooker Chords & Tabs

 

Bbc Snooker Chords & Tabs

Misc Television Chords & Tabs

Version: 1 Type: Tab 0 ratings
1 star 2 stars 3 stars 4 stars 5 stars
comments

Bbc Snooker Tab

this song is really cool, its all on one guitar and is played really 
fast.

here goes:

e)---------------------3-2-0--0-0---
B)---------------------3-3-2--2-2---
G)---------------7-5---0-2-2--2-2---
D)--5h7-5h7-5h7--7-5---0-0-2--2-2---
A)--0---0---0----------2---0--0-0---
E)---------------------3------------   play twice
[ Tab from: http://www.guitartabs.cc/tabs/m/misc_television/bbc_snooker_tab.html ]
e)------------------------3-2-0--0-0--
B)------------------------3-3-2--2-2--
G)------------------------0-2-2--2-2--
D)------------------------0-0-2--2-2--
A)---7-7-7p6p5------------2---0--0-0--
E)---------------7-6-5-3--3-----------  play once 


e)--------------------------3-2-0-------
B)--------------------------3-3-2-------
G)--------------------------0-2-2-------
D)-----2-2h4--2-5-5p4p2p0---0-0-2-------
A)---4----------------------2---0-------
E)--------------------------3-----------

remember as fast as possible
thats it 
enjoy :o)

email me plz @ barry_fallon2000@hotmail.com
 
Comments