Misc Television - Aquafresh Advert Chords & Tabs

 

Aquafresh Advert Chords & Tabs

Misc Television Chords & Tabs

Version: 1 Type: Tab 0 ratings
1 star 2 stars 3 stars 4 stars 5 stars
comments

Aquafresh Advert Tab

-------------------------------------------------------------------------------
			     Aquafresh - Advert Song
-------------------------------------------------------------------------------
Tabbed by: Fiddlesticks

Link to advert for rhythm and reference:
http://www.youtube.com/watch?v=luVtgX4S3y4


Tuning: Standard

e|----------------------------------------------------------|
B|----------------------------------------------------------|
G|------------------------0--0------2-----------------------|
D|-0---0----4-----4-----------------------------------------|
A|----------------------------------------------------------|
E|----------------------------------------------------------|
   We want blue stripes, we want white.

e|----------------------------------------------------------|
B|----------------------------------------------------------|
G|-------------------------------0--------------------------|
D|-0---0----0---4-----4-----4----------2--------------------|
A|-----------------------------------------4----------------|
E|----------------------------------------------------------|
   We want the red stripes but that's alright.

e|----------------------------------------------------------|
B|----------------------------------------------------------|
G|-----------------------0---0---0----1---------------------|
D|-0--0---0---4----4-4--------------------------------------|
A|----------------------------------------------------------|
E|----------------------------------------------------------|
  As you can see, Aquafresh has all three.
[ Tab from: http://www.guitartabs.cc/tabs/m/misc_television/aquafresh_advert_tab.html ]
e|----------------------------------------------------------|
B|----------------------------------------------------------|
G|--2---2---2--2---2---0-------0---2-0----------------------|
D|-------------------------4-----------4-0------------------|
A|----------------------------------------------------------|
E|----------------------------------------------------------|
  Three-in-one protection for your family!



e|----------------------------------------------------------|
B|----------------------------------------------------------|
G|----------------------------0-----0------2----------------|
D|---0------0-----4----4------------------------------------|
A|----------------------------------------------------------|
E|----------------------------------------------------------|
   Brush, brush, red stripe, blue stripe, white.

e|----------------------------------------------------------|
B|----------------------------------------------------------|
G|---------------------------------0------------------------|
D|-0--------0-----4--4----4--4------------2-----------------|
A|---------------------------------------------4------------|
E|----------------------------------------------------------|
   Brush, brush, gurgle, gurgle, tastes just right.

e|----------------------------------------------------------|
B|----------------------------------------------------------|
G|----------------------0--0-0---1---1----1----2------------|
D|-0-0---4---4--4--5----------------------------------------|
A|----------------------------------------------------------|
E|----------------------------------------------------------|
  Aquafresh has to be, the only one with all three.

e|----------------------------------------------------------|
B|----------------------------------------------------------|
G|--2---2---2--2---2---0-------0---2--0---------------------|
D|-------------------------4-------------4-0----------------|
A|----------------------------------------------------------|
E|----------------------------------------------------------|
  Three-in-one protection for your fa-mi-ly!   Bom!

  Enjoy!

------------------------------------------------------------------------------
------------------------------------------------------------------------------
Comments