Misc Television - A Team Theme Chords & Tabs

 

A Team Theme Chords & Tabs

Misc Television Chords & Tabs

Version: 4 Type: Tab 0 ratings
1 star 2 stars 3 stars 4 stars 5 stars
comments

A Team Theme Tab

-------------------------------------------------------------------------------
			     A-Team Theme Song
-------------------------------------------------------------------------------

Tabbed by: Nicky Franssen
Email: Chroxy@hotmail.com
Tuning: normal tuning

This is the tab from the theme song from the 80's serie: The A-team..
You can hear this part clearly in the middle of the theme song..

There are 2 ways to play the song.. choose the one you think is the best..

Option 1:
[ Tab from: http://www.guitartabs.cc/tabs/m/misc_television/a_team_theme_tab_ver_4.html ]
E----------------------------------------------------------------
B----------------------------------------------------------------
G----------------------------------------------------------------
D-7-7--5--7--5--7--5-5-5--12--10--7-7--5--7--5--3-3-3--5---------
A-5-5--3--5--3--5--3-3-3--10--8---5-5--3--5--3--1-1-1--3---------
E-5-5--3--5--3--5--3-3-3--10--8---5-5--3--5--3--1-1-1--3---------

Option 2:

E----------------------------------------------------------------
B----------------------------------------------------------------
G-------------------------7--5-----------------------------------
D-7-7--5--7--5--7--5-5-5--7--3--7-7--5--7--5--3-3-3--5-----------
A-5-5--3--5--3--5--3-3-3--5--3--5-5--3--5--3--1-1-1--3-----------
E-5-5--3--5--3--5--3-3-3--------5-5--3--5--3--1-1-1--3-----------

If you have any suggestions, mail me: Chroxy@hotmail.com
Comments