Misc Soundtrack - Yu-gi-oh Japan - Voice Chords & Tabs

 

Yu-gi-oh Japan - Voice Chords & Tabs

Misc Soundtrack Chords & Tabs

Version: 1 Type: Tab 0 ratings
1 star 2 stars 3 stars 4 stars 5 stars
comments

Yu-gi-oh Japan - Voice Tab

   
-------------------------------------------------------------------------------
	     "Voice" (JPN Yu-Gi-Oh! Season 2 Them) - CLOUD
-------------------------------------------------------------------------------

Note: This is Japan's Theme Song for Yu-Gi-Oh! Season 2 (Duelist Kingdom), performed by
the Japanese rock band CLOUD.
http://www.angeltowns.com/town/janime/op02/voice_mp3.zip

Tabbed by: ygokazuki
Email: ygokazuki@gmail.com

Tuning: Standard - EBGDAe

Intro (x2) - Bass-Heavy Distortion
e|-----------|---------------|----------------|
B|-----------|---------------|----------------|
G|-----------|---------------|-5:-------------|
D|-6:--------|-8:------------|-5:-------------|
A|-6:--------|-8:------------|-3:-------------|
E|-4:--------|-6:------------|----------------|
    Todoketai   todokanai     kono omoi o
    Karamawari  shita mama no boku no jounetsu
	
Riff (x2) - Light Overdrive
e|-------------------------------------------|
B|-------------------------------------------|
G|-12-12-12-12-13-13-13-13-10-10-10-10-8-7-5-|
D|-12-12-12-12-13-13-13-13-10-10-10-10-8-7-5-|
A|-10-10-10-10-11-11-11-11--8--8--8--8-6-5-3-|
E|-------------------------------------------|
	e|---------------------------------------------|
	B|---------------------------------------------|
	G|-12-12-12-12-13-13-13-13-10-10-10-10-10-10---|
	D|-12-12-12-12-13-13-13-13-10-10-10-10-10-10---|
	A|-10-10-10-10-11-11-11-11--8--8--8--8--8--8---|
	E|---------------------------------------------|
Verse (x4)
e|-------------------------------------------------------------|
B|-------------------------------------------------------------|
G|-17:---------------------------------------------------------|
D|-17:-----------------------6-6-x-x-x-8-8-x-x-x-10-10-8-8/10:-|
A|-15:-----------------------6-6-x-x-x-8-8-x-x-x-10-10-8-8/10:-|
E|---------------------------4-4-x-x-x-6-6-x-x-x--8--8-6-6/-8:-|
      Yomi-kirenai zasshi no PAGE
      Yomanakucha ikenai ki ni naru yo
      Fueteiku TEREBI no CHANNEL
      Zenbu minakya okurechau no ka na

Bridge     
e|-------------------------|
B|-------------------------|
G|--5:---------------------|
D|--5:-------6:-------8:---|
A|--3:-------6:-------8:---|
E|-----------4:-------6:---|
   Okashi na yume mirunda 
   ie no mae no kouen de
   Kimi ni nageta BALL ga 
   tochuu de ochichaunda yo

Verse 2
e|-------------------------------------------------------------|
B|-------------------------------------------------------------|
G|-17:---------------------------------------------------------|
D|-17:-----------------------6-6-x-x-x-8-8-x-x-x-10-10-8-8/10:-|
A|-15:-----------------------6-6-x-x-x-8-8-x-x-x-10-10-8-8/10:-|
E|---------------------------4-4-x-x-x-6-6-x-x-x--8--8-6-6/-8:-|
      Heya no sumi tsumareta GAME-SOFT
[ Tab from: http://www.guitartabs.cc/tabs/m/misc_soundtrack/yu_gi_oh_japan_voice_tab.html ]
Verse 2 pt. 2
e|------------------------------------|
B|------------------------------------|
G|-17:-----------------------------5:-|
D|-17:---------------------------6----|
A|-15:-------------------------6------|
E|---------------------------4--------|
      Yaranakucha imi ga nai no ka na

->Play BRIDGE
Bridge Lyrics:
TABLE no mukou no kimi ni 
shaberi kaketeiru no ni
Kimi wa hyojou hitotsu 
kaete wa kurenai

Pre-Chorus
1. Play meas one
2. Sing line 1
3. Play meas 1
4. Sing line 2
5. Play meas 1
6. Sing line 3 and play parentheses
e|-------------------------|--------------|
B|-------------------------|--------------|
G|-5-----------------------|--------------|
D|-5-6-8:------------------|-(8-8-8-8-10)-|
A|-3-6-8:------------------|-(8-8-8-8-10)-|
E|---4-6:------------------|-(6-6-6-6--8)-|
Line 1:   Konna ni 
Line 2:   chikaku ni 
Line 3:   boku ga iru no ni

Chorus
e|-------------------------------------------------|
B|-------------------------------------------------|
G|---------------------5-5-5-5-7-7-7-7-7-8-8-8-8-8-|
D|-6:--8:----10:-8:----5-5-5-5-7-7-7-7-7-8-8-8-8-8-|
A|-6:--8:----10:-8:----3-3-3-3-5-5-5-5-5-6-6-6-6-6-|
E|-4:--6:-----8:-6:--------------------------------|
   Todokanai todokanai kono omoi o 
   hontou ni taisetsu na koto nanika na

Solo
e|-3--3-3---------|------------------------------6-8-11-|
B|--------6-4-4-4-|-4-6--6-6-6-4-4-----4h6-6-6-6--------|
G|----------------|----------------3-5------------------|
D|----------------|-------------------------------------|
A|----------------|-------------------------------------|
E|----------------|-------------------------------------|

Solo pt. 2 (!!=notes are fed back from an octave pedal)
e|-11--11-8--------------------------------------------|-15:-|----|-15:-|
B|----------6h8-6---6-----------------8-11-8-8-11-8-8:-|-----|----|-----|
G|----------------8---5-5-5-8-5-5-8-5------------------|-----|-5:-|-----|
D|-----------------------------------------------------|-----|-5:-|-----|
A|-----------------------------------------------------|-----|-3:-|-----|
E|-----------------------------------------------------|-----|----|-----|
							 !!         !!
Post-Solo Riff
e|---------------------|
B|---------------------|
G|---------------------|
D|---1-3-1-3-1-3-1-5~:-|
A|-3-------------------|
E|---------------------|


Pre-Chorus
Line 1:   Nanda ka 
Line 2:   dareka ni
Line 3:   ayatsureteiru mitai

Pre-Chorus 2:
Line 1:   Kokoro wa
Line 2:   hontou ni
Line 3:   boku no mono na no

->Play CHORUS
Chorus 2 Lyrics:
Kikoenai todokanai kimi no koe ga 
Zattou ni saegirare kiete shimau

Final Chorus pt. 2 (brackets=start playing riff, end on a C5 chord
e|-------------------------------------------------------------|
B|-------------------------------------------------------------|
G|-------------------------------------------------------------|
D|-6:-8:------10:---8:--6:-8:----------------------------------|
A|-6:-8:------10:---8:--6:-8:----------------------------------|
E|-4:-6:-------8:---6:--4:-6:---------------start playing riff-|
        Nanimokamo ga         yugandeiku
        Nanimo shiranai kokoro ni modoretara [II NO II NA]
   
| /  slide up
| \  slide down
| h  hammer-on
| p  pull-off
| ~  vibrato
| +  harmonic
| x  Mute note
===============================================================================
Comments