Misc Soundtrack - X Men Theme Chords & Tabs

 

X Men Theme Chords & Tabs

Misc Soundtrack Chords & Tabs

Version: 2 Type: Tab 0 ratings
1 star 2 stars 3 stars 4 stars 5 stars
comments

X Men Theme Tab

X-MEN THEME TUNE FROM THE CARTOON!! I THINK IT'S PRETTY SPOT ON.


E--------------------------------------------------
B-----------------------------------------------5--
G---------------------------------------------4----
D-----------------------------------------4-2------
A-----3H5-3H5-3---3H5-3H5-3---3H5-3H5-3-6----------
E---------------4-----------5----------------------
[ Tab from: http://www.guitartabs.cc/tabs/m/misc_soundtrack/x_men_theme_tab_ver_2.html ]
E-----------------------------------------------5--
B---------------------------------------------5----
G-----------------------------------------4-2------
D-----3H5-3H5-3---3H5-3H5-3---3H5-3H5-3-6----------
A---------------4-----------5----------------------
E--------------------------------------------------

 FASTER GALLOPING BT NOW

E-----------------------------------------------------
B-----------------------------------------------------
G-----------------------------------------------------
D-----------------------------3-2-0-3-2-0-3-2-0-3-2-0-
A-----3-2-0-3-2-0-3-2-0-3-2-0-------------------------
E-----------------------------------------------------

E----------------------------------------------------
B-----------------------------5(LET RING)------------
G-----5-4-2-5-4-2-5-4-2-5-4-2------------------------
D----------------------------------------------------
A----------------------------------------------------
E----------------------------------------------------
Comments