Misc Soundtrack - Wonder Years Theme Chords & Tabs

 

Wonder Years Theme Chords & Tabs

Misc Soundtrack Chords & Tabs

Version: 1 Type: Tab 0 ratings
1 star 2 stars 3 stars 4 stars 5 stars
comments

Wonder Years Theme Tab

-----------------------------------------------------------------------------
	     "The Wonder Years" End Credits music (aka the winnie song)
-----------------------------------------------------------------------------
Tabbed by: Frosty
Email: samuelfrost@yahoo.com

Tuning: standard
[ Tab from: http://www.guitartabs.cc/tabs/m/misc_soundtrack/wonder_years_theme_tab.html ]
e----------------------------------------------------------------------
B-7h8-7h8-7------5--3--3-----7h8-7h8-7------5--7--3--------------------
G----------------------------------------------------------------------
D-7---7---7------5--5--0-----7---7---7------5--5--0--------------------
A----------------------------------------------------------------------
E----------------------------------------------------------------------

e-----------------------------------(0)--------------------------------
B---3-------3-------3-------3---2---(3)--------------------------------
G-----0-------0-------0-------------(2)--------------------------------
D-------0-------0-------0-----------(0)--------------------------------
A---------------------------0---0---(0)--------------------------------
E-3-------2-------0----------------------------------------------------

Finish on a Dsus2 after going thru the whole thing twice
Comments