Misc Soundtrack - Withnail And I Theme Chords & Tabs

 

Withnail And I Theme Chords & Tabs

Misc Soundtrack Chords & Tabs

Version: 1 Type: Tab 0 ratings
1 star 2 stars 3 stars 4 stars 5 stars
comments

Withnail And I Theme Tab

Main Theme to 'Withnail & I'

From andy@insite-webmedia.co.uk

Tabbed by Pad Quigley

e|--------8----8--9-----------------------9------|
B|-----11----------------------9--11---11--------|
G|--10---------------10----10----------------10--|
D|-----------------------------------------------|
A|-----------------------------------------------|
E|-----------------------------------------------|
[ Tab from: http://www.guitartabs.cc/tabs/m/misc_soundtrack/withnail_and_i_theme_tab.html ]
e|-----------------------------------------------|
B|------------9----------9-----------------------|
G|--10----10-----8----8---------------8--10------|
D|--------------------------11----11-------------|
A|-----------------------------------------------|
E|-----------------------------------------------|

When moving to another note on the same string
slide up or down to it, but you don't have to.
Comments