Misc Soundtrack - Vaders Theme Chords & Tabs

 

Vaders Theme Chords & Tabs

Misc Soundtrack Chords & Tabs

Version: 1 Type: Tab 1 rating
1 star 2 stars 3 stars 4 stars 5 stars
comments

Vaders Theme Tab

Vader's Theme:.:

E|---------------------------------------|
B|---------------------------------------|
G|---------------------------------------|
D|--------------------0-0-0-1------------|
A|-0-0-0---3-0---3-0----------3-0---3-0--|
E|-------1-----1------------------1------|

This next part is sketchy.. but...
[ Tab from: http://www.guitartabs.cc/tabs/m/misc_soundtrack/vaders_theme_tab.html ]
E|-------------------------------------------|
B|-------------------------------------------|
G|-------------------------------------------|
D|-2--1-2-1-0-1-0-1--------------------------|
A|------------------3--4-3-2-3-2-3---0---3-0-|
E|---------------------------------4---1-----|

Okay.. thats it for now.. Ill listen to more of the CD later...
Comments