Misc Soundtrack - Truman Show Ending Chords & Tabs

 

Truman Show Ending Chords & Tabs

Misc Soundtrack Chords & Tabs

Version: 1 Type: Tab

Truman Show Ending Tab

Truman Show Theme (Ending)

[ Tab from: http://www.guitartabs.cc/tabs/m/misc_soundtrack/truman_show_ending_tab.html ]
e||----0----0----0----0----0----0----0----0----0----0-----
B||---0----0----0----0----0----0----0----0----1----1------
G||--0----0----0----0----1----1----1----1----2----2-------
D||-------------------------------------------------------
A||-------------------------------------------------------
E||-------------------------------------------------------

e||----0----0----0----0----1--------||
B||---1----1----0----0--------------||
G||--0----0----0----0---------------||
D||---------------------------------||
A||---------------------------------||
E||---------------------------------||