Misc Soundtrack - Titanic Theme Chords & Tabs

 

Titanic Theme Chords & Tabs

Misc Soundtrack Chords & Tabs

Version: 3 Type: Tab 0 ratings
1 star 2 stars 3 stars 4 stars 5 stars
comments

Titanic Theme Tab

   
Artist:Rose And Jack Dozen
Title: Titanic Theme
Misc Soundtrack
Tabbed by : hollow_teen@hotmail.com

email me if you guys have anyquestions ok. i hope you enjoy ok. oh and by the way
this is to the sponsers of this site, you guys are the best. this is what i think
sounds correcta and is more easier than doing it in the frets 10 till 16 and
stuff, mine is only like frets 3 to 7. so ok later and enjoy.

S= Slide
H= Hammer-on
-- = wait about 1 second
--- and more= wait 2-3 seconds.


[ Tab from: http://www.guitartabs.cc/tabs/m/misc_soundtrack/titanic_theme_tab_ver_3.html ]
-3--3-3--3--2-2h3-3-2-2h3--5-5s7--5---3-3-3-3-2-2h3-------3----5-|
----------------------------------------------------3------------|(contunue)
------------------------------------------------------2----------|   |
-----------------------------------------------------------------|   |
-----------------------------------------------------------------|   V
-----------------------------------------------------------------|
__________________________________________________________________________

-7--5-----3--2-3-----5-7-5-------3-3-2-2h3--|
--------------------------------------------|
--------------------------------------------|
--------------------------------------------|
--------------------------------------------|
--------------------------------------------|

there thats it. hope you enjoy this tab
if you want to visit this page just look at the bottom ok
take care and again hope you like it
Comments