Misc Soundtrack - The Matrix Chords & Tabs

 

The Matrix Chords & Tabs

Misc Soundtrack Chords & Tabs

Version: 1 Type: Bass Tab

The Matrix Bass Tab

The Matrix 
Bass Riff
Submitted By 0dcrawf@hunter.s-lanark.sch.uk
[ Tab from: http://www.guitartabs.cc/tabs/m/misc_soundtrack/the_matrix_btab.html ]
             Play 8 times
G|-----------------------------|
D|-----------------------------|
A|-----------------0----2----3-|
E|---2--2---2-2-2--------------|

             Play 8 Times (Back to the Begining)
G|-----------------------------|
D|-----------------0----2----3-|
A|---2--2---2-2-2--------------|
E|-----------------------------|

Repeat to the end of the song.