Misc Soundtrack - The Great Escape Theme Chords & Tabs

 

The Great Escape Theme Chords & Tabs

Misc Soundtrack Chords & Tabs

Version: 1 Type: Tab 0 ratings
1 star 2 stars 3 stars 4 stars 5 stars
comments

The Great Escape Theme Tab

This aint the whole song I was just messing about and got this.
Oliver Morgan

The Great Escape Soundtrack
[ Tab from: http://www.guitartabs.cc/tabs/m/misc_soundtrack/the_great_escape_theme_tab.html ]
E-------------------0---------------------------------------
B-------------1-------3--1----3--3--1--0--1--0--------------
G----------0-----0----------2-------------------2--0--------
D-2--3--4----------------------------------------------2----
A-----------------------------------------------------------
E-----------------------------------------------------------

E-------------------0---------------------------------------
B-------------1-------3--1----3--3--1--0-----3--1-----------
G----------0-----0----------2-------------0-----------------
D-2--3--4---------------------------------------------------
A-----------------------------------------------------------
E-----------------------------------------------------------

Comments