Misc Soundtrack - Terminator Theme Chords & Tabs

 

Terminator Theme Chords & Tabs

Misc Soundtrack Chords & Tabs

Version: 1 Type: Bass Tab 0 ratings
1 star 2 stars 3 stars 4 stars 5 stars
comments

Terminator Theme Bass Tab

~Terminator Theme~
Tabbed by : Ryan VanPatten(futrebartender5@netscape.net)

I was bored and was watching the movie so i just figured it out lol...
it sounds just like the song...you just have to take the parts and put
them in the order, so listen to the song while u play. :~)
[ Tab from: http://www.guitartabs.cc/tabs/m/misc_soundtrack/terminator_theme_btab.html ]
Part 1
G|----9h11h12----11-----6----1----|
D|--------------------------------|
A|--------------------------------|
E|--------------------------------|

Part2
G|----9h11h12----11---7---14---11-----|
D|------------------------------------|
A|------------------------------------|
E|------------------------------------|

Part 3
G|----9h11h12---11-----6----1-----------------------|
D|-------------------------------4---------4----3---|
A|-------------------------------------4------------|
E|--------------------------------------------------|
Comments