Misc Soundtrack - Star Wars Main Theme Chords & Tabs

 

Star Wars Main Theme Chords & Tabs

Misc Soundtrack Chords & Tabs

Version: 1 Type: Tab 1 rating
1 star 2 stars 3 stars 4 stars 5 stars
comments

Star Wars Main Theme Tab

STAR WARS THEME
Tabulaturen von Manfred Valentan & Jörg Killmann
Tabulaturas de Manfred Valentan y Jorge Matarhombre
Tabs from Fred Valentan and Jim Killman

e-------------------------------------------------
h-------------------------------------------------
g---------------3----------3----------------------
d-----3---1-0------3-1-0------3---1-0-1-----------
a-1-----------3----------3--------------3---------
e-------------------------------------------------


e-------------------------------------------------
h-------------------------------------------------
g---------------3----------3-----1-0-1------------
d-----3---1-0------3-1-0------3--------3----------
a-1-----------3----------3------------------------
e-------------------------------------------------

[ Tab from: http://www.guitartabs.cc/tabs/m/misc_soundtrack/star_wars_main_theme_tab.html ]
e-------------------------------------------1-----
h-------4-3-1-------1-3-1-----------4-3-1-------1-
g---0---------3-3----------0-2----0-------3-------
d-3-----------------------------3-----------------
a-------------------------------------------------
e-------------------------------------------------


e-------------------------------1-----------------
h-------4-3-1-------1-3-1-------------------------
g---0---------3-3----------0-2--------------------
d-3-----------------------------------------------
a-------------------------------------------------
e-------------------------------------------------


e-1-6-4-2-1---------1~~ --------------------------
h-----------4-2-1---------------------------------
g-----------------3-------------------------------
d----------------------------------------------1--
a--------------------------------------------1---3
e----------------------1-1-1-1---1-1-1-3---3------


Wiederholen solange es beliebt....
Repítalo hasta que no quiere seguir...
Repeat ´till you´re fed up with it...

brandybock@gmx.at



Comments