Misc Soundtrack - Star Wars - Darth Vader Theme Chords & Tabs

 

Star Wars - Darth Vader Theme Chords & Tabs

Misc Soundtrack Chords & Tabs

Version: 1 Type: Bass Tab 0 ratings
1 star 2 stars 3 stars 4 stars 5 stars
comments

Star Wars - Darth Vader Theme Bass Tab

Made by: florida656

The "Darth Vader" is a great piece of music. It's only the intro,
but it's right, so be happy. =P

[ Tab from: http://www.guitartabs.cc/tabs/m/misc_soundtrack/star_wars_darth_vader_theme_btab.html ]
G:--------------------------------------------------
D:------------------------------5--5--5--6----------
A:---3--3--3----53-------53---------------6---------
E:-----------4-------4---------------------7--------


G:--------------------------------------------------
D:------------------------------5--5--5--6----------
A:---3--3--3----53-------53---------------6---------
E:-----------4-------4---------------------7--------

Repeat as much as you like.
Comments